首页 >教学入门 >吉他经典入门简谱教学

吉他经典入门简谱教学

来源:www.feitiancanyin.com 时间:2024-05-15 06:38:02 作者:教学之家网 浏览: [手机版]

学习吉他是很多的梦想,但是对于初学者来说,想要掌握吉他并不容易教_学_之_家_网。本文将为大家介绍几首经典的吉他曲目,以简谱的形式教授吉他初学者如何演奏。

吉他经典入门简谱教学(1)

1. 《童话》

  《童话》是一首非常经典的吉他曲目,光良演唱。它的律简单易懂,非常适合初学者练习教+学+之+家+网面是它的简谱:

  

E|------3-----3-----3-----3-----0-----0-----0-----0-----|

  B|----0-----0-----0-----0-----1-----1-----1-----1-------|

  G|--0-----0-----0-----0-----2-----2-----2-----2---------|

  D|-------------------------------------------------------|

  A|-------------------------------------------------------|

E|-------------------------------------------------------|

吉他经典入门简谱教学(2)

2. 《梦的婚礼》

  《梦的婚礼》是一首非常优美的吉他曲目,陈奕迅演唱。这首歌的律简单,但是需要一定的技巧才演奏面是它的简谱:

E|-------------------------------------------------------|

  B|-------------------------------------------------------|

  G|-----0-----0-----0-----0-----0-----0-----0-----0-------|

D|---2-----2-----2-----2-----2-----2-----2-----2---------|

  A|-3-----3-----3-----3-----3-----3-----3-----3-----------|

  E|-------------------------------------------------------|

3. 《演

  《演》是一首非常的吉他曲目,薛之谦演唱教.学.之.家.网。这首歌的律简单,但是需要一定的技巧才演奏面是它的简谱:

  

E|-------------------------------------------------------|

  B|-------------------------------------------------------|

  G|-----0-----0-----0-----0-----0-----0-----0-----0-------|

  D|---2-----2-----2-----2-----2-----2-----2-----2---------|

  A|-3-----3-----3-----3-----3-----3-----3-----3-----------|

E|-------------------------------------------------------|

  

4. 《小幸运》

  《小幸运》是一首非常温馨的吉他曲目,田馥甄演唱。这首歌的律简单,非常适合初学者练习feitiancanyin.com面是它的简谱:

  

E|-----3-----3-----3-----3-----3-----3-----3-----3-------|

B|---1-----1-----1-----1-----1-----1-----1-----1---------|

G|-0-----0-----0-----0-----0-----0-----0-----0-----------|

D|-------------------------------------------------------|

  A|-------------------------------------------------------|

E|-------------------------------------------------------|

吉他经典入门简谱教学(3)

5. 《天空之城》

《天空之城》是一首非常经典的吉他曲目,久石让创作。这首歌的律简单,但是需要一定的技巧才演奏面是它的简谱:

  E|-------------------------------------------------------|

  B|-------------------------------------------------------|

  G|-----0-----0-----0-----0-----0-----0-----0-----0-------|

D|---2-----2-----2-----2-----2-----2-----2-----2---------|

  A|-3-----3-----3-----3-----3-----3-----3-----3-----------|

  E|-------------------------------------------------------|

  

  以上就是五首非常经典的吉他曲目,它们的律简单易懂,非常适合初学者练习原文www.feitiancanyin.com。希望初学者们够通过这些曲目,掌握吉他的基本技巧,为以后更深入的学习打坚实的基

0% (0)
0% (0)
版权声明:《吉他经典入门简谱教学》一文由教学之家网(www.feitiancanyin.com)网友投稿,不代表本站观点,版权归原作者本人所有,转载请注明出处,如有侵权、虚假信息、错误信息或任何问题,请尽快与我们联系,我们将第一时间处理!

我要评论

评论 ( 0 条评论)
网友评论仅供其表达个人看法,并不表明好好孕立场。
最新评论

还没有评论,快来做评论第一人吧!
相关文章
  • 南京亚马逊新手教学流程

    前言随着互联网的发展,电商平台已经成为了人们购物的重要渠道之一。亚马逊作为全球最大的电商平台之一,吸引了众多商家的关注。然而,对于新手来说,如何在亚马逊上开店、运营店铺是一个比较复杂的问题。本文将为南京地区的亚马逊新手提供一份详细的教学流程,帮助他们快速入门。第一步:注册亚马逊卖家账号在注册亚马逊卖家账号之前,需要准备好以下材料:

    [ 2024-05-15 05:48:43 ]
  • Python编程基础教学:从入门到实践

    Python是一种高级编程语言,它易于学习、阅读和编写。Python被广泛应用于数据科学、机器学习、人工智能、网络编程、游戏开发等领域。本文将介绍Python编程的基础知识,包括变量、数据类型、运算符、条件语句、循环语句、函数、模块等,并通过实例演示如何应用Python进行编程。一、变量

    [ 2024-05-15 05:20:33 ]
  • 火机点火入门教学:从基础知识到实践技巧

    火机的种类和结构火机是一种常见的点火工具,通常由金属外壳、燃料箱、点火装置和调节器组成。根据燃料种类和点火方式的不同,火机可以分为以下几种类型:1. 手动打火机:需要通过摩擦或者压缩等方式点火,常见的有打火石火机和气体打火机。2. 自动打火机:通过电子元件点火,常见的有电子火机和电火柴。

    [ 2024-05-15 04:31:18 ]
  • 李白前期新手入门教学

    李白,唐代著名诗人,被誉为“诗仙”。他的诗歌风格豪放、奔放,充满了浪漫主义的色彩,被后人推崇为民族文化的瑰宝。如果你想学习李白的诗歌,那么本文将为你提供一些入门的方法和技巧。一、了解李白的生平了解李白的生平,可以更好地理解他的诗歌。李白生于唐朝贞观十三年(公元701年),死于开元二十四年(公元762年),享年61岁。

    [ 2024-05-15 02:16:56 ]
  • 新手入门鬼步舞左右转教学

    鬼步舞是一种流行的街舞风格,它的独特之处在于它的步伐和动作非常流畅和连贯。鬼步舞的左右转是它的基础动作之一,也是新手入门的必修课程。在本文中,我们将为您介绍如何学习鬼步舞的左右转教学。鬼步舞左右转的基础步伐在学习鬼步舞左右转之前,我们需要先学习它的基础步伐。以下是鬼步舞的基础步伐:1. 右脚向前迈出一步,左脚跟随向前迈出一步;

    [ 2024-05-14 23:49:45 ]
  • 钢琴新手教学:如何认谱子

    学习钢琴,首先要学会认谱子。谱子是钢琴演奏的基础,它告诉我们哪些键要按,按多长时间,以及哪些音符需要强调。在学习钢琴的过程中,认谱子是非常重要的一步。本文将为钢琴新手介绍如何认谱子。一、认识乐谱乐谱是指用特定的符号和标记来表示音乐的一种书写形式。乐谱包括五线谱和简谱两种。五线谱是指用五条平行的横线和四个间隔来表示音符的高低和时值。

    [ 2024-05-14 20:59:59 ]
  • 素描入门第一步教学

    素描是绘画的基础,掌握好素描技巧可以为后续的绘画打下坚实的基础。本文将为大家介绍素描入门的第一步教学。素描工具首先,我们需要准备一些素描工具:1. 硬度不同的铅笔(2B、4B、6B等)2. 橡皮擦3. 磨砂纸或者素描纸基本线条训练在开始绘画之前,我们需要进行基本线条的训练。基本线条包括直线、曲线、圆等。

    [ 2024-05-14 20:20:16 ]
  • 小号吹奏入门教学:从零开始学习小号演奏技巧

    小号是一种非常受欢迎的铜管乐器,其音色明亮、清澈,被广泛应用于交响乐、爵士乐、摇滚乐等不同类型的音乐中。如果你是一个初学者,想要学习如何演奏小号,那么本文将为你提供一些入门教学的指导。1. 了解小号的基本结构和组成在开始学习小号演奏技巧之前,你需要先了解小号的基本结构和组成。小号由三个主要部分组成:喇叭管、活塞和吹口。

    [ 2024-05-14 15:29:00 ]
  • 荒野行动指切教学:从入门到精通

    荒野行动是一款备受欢迎的多人在线射击游戏,许多玩家都想成为这个游戏中的高手。然而,想要在荒野行动中脱颖而出,需要不断地提高自己的游戏技巧。而指切是荒野行动中非常重要的技巧之一,掌握了指切技巧,可以让玩家在游戏中更加灵活和准确地操作角色。本文将为大家详细介绍荒野行动的指切技巧,从入门到精通,让你成为荒野行动中的高手。一、什么是指切?

    [ 2024-05-14 15:02:07 ]
  • 跆拳道入门级腿法教学

    前言跆拳道是一种以踢、打、防御为主要内容的武术运动,其中腿法是跆拳道的重要组成部分。在跆拳道的比赛和实战中,腿法的运用非常重要。因此,本文将重点介绍跆拳道入门级腿法教学,帮助读者提高跆拳道的技术水平。基本腿法跆拳道的基本腿法包括前踢、侧踢、后踢、抬腿、踢膝盖等。下面将逐一介绍这些腿法的具体技术要领。前踢

    [ 2024-05-14 10:10:32 ]